Fans & Friends of The Dreaming

Forum for all fans and friends of the L.A. rock band The Dreaming to hang out.
 
HomeHome  GalleryGallery  FAQFAQ  RegisterRegister  Log inLog in  
Search
 
 

Display results as :
 
Rechercher Advanced Search
Latest topics
» Please say you're not dead to me
Mon Aug 13, 2012 2:49 am by darkcrow

» Im BACK!!!!!
Tue Dec 22, 2009 4:46 am by FFEMT1A

» New Information
Tue Mar 17, 2009 6:40 pm by Jessa The Riot

» Well its been fun....... sort of...LOL
Sat Mar 14, 2009 3:05 pm by bullet

» NEW "old" CD!!
Sat Mar 14, 2009 3:01 pm by bullet

» Why are you Pissed Off Today?
Sat Jan 10, 2009 10:47 pm by crimson regret

» NorCal shows cancelled
Tue Jan 06, 2009 1:12 pm by CelticFae

» What Are You Doing?
Wed Dec 31, 2008 6:25 pm by crimson regret

» Annoying Commercials
Mon Dec 22, 2008 12:33 am by crimson regret

December 2018
MonTueWedThuFriSatSun
     12
3456789
10111213141516
17181920212223
24252627282930
31      
CalendarCalendar

Share | 
 

 Guitar/Bass Tabs

Go down 
Go to page : 1, 2  Next
AuthorMessage
Crusader
Let it Burn
Let it Burn
avatar

Posts : 395
Join date : 2008-05-19
Age : 27
Location : Cincinnati

PostSubject: Guitar/Bass Tabs   Tue Jun 03, 2008 4:35 pm

Well, I kinda dabble in the guitar. I'm not good by any standard, but I'm okay.

I was wondering if it would be okay to tab out some of The Dreaming's songs. I do it by ear, and know it's kinda hard sometimes, so I was thinking I could tab some stuff out for people who might just be looking around to learn to play songs. That way, they could stumble on the band when they're just trying to play songs or something.

Is this legit or am I not allowed to do that?
Back to top Go down
View user profile
Laura
Needs more than a tourniquet
Needs more than a tourniquet
avatar

Posts : 243
Join date : 2008-05-20
Location : Phoenix, Arizona

PostSubject: Re: Guitar/Bass Tabs   Tue Jun 03, 2008 5:33 pm

I'm sure the guys would appreciate the help, but someone may have already done it.

Jinxx has the acoustic Fly Away & Crawl tabs on his myspace page:
http://profile.myspace.com/index.cfm?fuseaction=user.viewprofile&friendid=218237431

I just emailed him to see if he already had some others done, and if he would mind if someone did it. I'll let you know what he says!
Back to top Go down
View user profile http://www.lauradetour.com
Laura
Needs more than a tourniquet
Needs more than a tourniquet
avatar

Posts : 243
Join date : 2008-05-20
Location : Phoenix, Arizona

PostSubject: Re: Guitar/Bass Tabs   Tue Jun 03, 2008 5:56 pm

Here is Jinxx's reply:

I'm so busy all the time I really don't have the time to write them out myself, so if someone else wants to take the initiative, more power to 'em! I have no problem with that whatsoever, as long as if they post it anywhere they give writing credits to the band of course.


So have at it!! Very Happy
Back to top Go down
View user profile http://www.lauradetour.com
Crusader
Let it Burn
Let it Burn
avatar

Posts : 395
Join date : 2008-05-19
Age : 27
Location : Cincinnati

PostSubject: Re: Guitar/Bass Tabs   Wed Jun 04, 2008 8:48 am

Whoa... I didn't know Jinxx has the tabs on his myspace! I've been looking for those for FOREVER!

Thanks!

I'll try to do Bullet first, since that's one of the ones I can play all the way through, indefinitely.

I can do Ugly, but I like the demo for Beautiful more... It's deeper and easier to play haha.

I can do just about all the songs, HOPEFULLY. I'll even tab out how I play some of the EP songs.


Is there any way we can post these liike.... somewhere ON the forum? Like the gallery page almost?
Back to top Go down
View user profile
aurinko vuori
Ugly on the inside
Ugly on the inside
avatar

Posts : 73
Join date : 2008-05-19
Age : 25
Location : Prague, Czech Republic

PostSubject: Re: Guitar/Bass Tabs   Wed Jun 04, 2008 2:21 pm

I found some ( not made by me )
http://thedreaming.blog.cz/0711/rozcestnik
click "Baskytarové taby" for Bass tabs or "Kytarové taby" for guitar tabs Smile I hope it will help you!
Back to top Go down
View user profile http://www.thedreaming.blog.cz  and www.myspace.com/kholenova
Crusader
Let it Burn
Let it Burn
avatar

Posts : 395
Join date : 2008-05-19
Age : 27
Location : Cincinnati

PostSubject: Re: Guitar/Bass Tabs   Thu Jun 05, 2008 9:51 am

That's cool! They have the EP Version of Let It Burn! I looooove that song. The Album one is.... okay....

But yeah, I'll try to do these sometime soon.... Hopefully, haha.
Back to top Go down
View user profile
Crusader
Let it Burn
Let it Burn
avatar

Posts : 395
Join date : 2008-05-19
Age : 27
Location : Cincinnati

PostSubject: Re: Guitar/Bass Tabs   Thu Jun 12, 2008 11:43 am

Okay, I'm going to get off my ass and actually DO this. I'll do Bullet tonight, since that's my favorite/easiest to play.

So yeah... I'll have the guitar tabs, the bass tabs, maybe. And I'll do a Powertab, which will combine both the guitar and bass, so we'll have a conglomerate.

Powertabs is super easy to use, and it's free to download. It shows you exactly how to play much easier than normal tabs.
Back to top Go down
View user profile
Laura
Needs more than a tourniquet
Needs more than a tourniquet
avatar

Posts : 243
Join date : 2008-05-20
Location : Phoenix, Arizona

PostSubject: Re: Guitar/Bass Tabs   Thu Jun 12, 2008 12:50 pm

I wish any of what you just said made any sort of sense to me...the only thing I got was "guitar" and "bass"...ha ha! Maybe I should learn how to play guitar!!

You go with your bad self! I can feel your excitement all the way in Phoenix!! Very Happy
Back to top Go down
View user profile http://www.lauradetour.com
Crusader
Let it Burn
Let it Burn
avatar

Posts : 395
Join date : 2008-05-19
Age : 27
Location : Cincinnati

PostSubject: Re: Guitar/Bass Tabs   Thu Jun 12, 2008 1:31 pm

Embarassed Hehe... uhhh... sorry, haha.

I got caught up in my excitement. But yes! I will make sure I actually do it tonight!
Back to top Go down
View user profile
Crusader
Let it Burn
Let it Burn
avatar

Posts : 395
Join date : 2008-05-19
Age : 27
Location : Cincinnati

PostSubject: Re: Guitar/Bass Tabs   Mon Jun 16, 2008 11:43 am

..... Yeah, yeah, I know........

I am working on it though! I'm almost done with Bullet. I'm having trouble with the bassline. Sad
Back to top Go down
View user profile
Laura
Needs more than a tourniquet
Needs more than a tourniquet
avatar

Posts : 243
Join date : 2008-05-20
Location : Phoenix, Arizona

PostSubject: Re: Guitar/Bass Tabs   Mon Jun 16, 2008 8:32 pm

Oh my gosh - no rush! I'm totally impressed that you can even do it!! Very Happy
Back to top Go down
View user profile http://www.lauradetour.com
Crusader
Let it Burn
Let it Burn
avatar

Posts : 395
Join date : 2008-05-19
Age : 27
Location : Cincinnati

PostSubject: Re: Guitar/Bass Tabs   Tue Jun 17, 2008 11:49 am

I sent Jinxx an e-Mail. Hopefully he'll respond.

I'm trying to see if maybe he'd put my tabs up on his Myspace... maybe.
Back to top Go down
View user profile
Laura
Needs more than a tourniquet
Needs more than a tourniquet
avatar

Posts : 243
Join date : 2008-05-20
Location : Phoenix, Arizona

PostSubject: Re: Guitar/Bass Tabs   Wed Jun 18, 2008 5:22 pm

If Jinxx doesn't reply to you, I can ask him about it on Friday.
Back to top Go down
View user profile http://www.lauradetour.com
Crusader
Let it Burn
Let it Burn
avatar

Posts : 395
Join date : 2008-05-19
Age : 27
Location : Cincinnati

PostSubject: Re: Guitar/Bass Tabs   Mon Jun 23, 2008 5:05 am

Sent the tabs for Bullet to him just a few minutes ago!

Hopefully I'll be cranking them out now.
Back to top Go down
View user profile
Crusader
Let it Burn
Let it Burn
avatar

Posts : 395
Join date : 2008-05-19
Age : 27
Location : Cincinnati

PostSubject: Re: Guitar/Bass Tabs   Mon Jun 23, 2008 9:53 am

Okay, people. It's up to you now.

Which song should I tab out next? Choose any song, and I'll do my best to get it done ASAP. Well, any song that's NOT on Dreamo. That's too hard for me. Sad Laughing
Back to top Go down
View user profile
Laura
Needs more than a tourniquet
Needs more than a tourniquet
avatar

Posts : 243
Join date : 2008-05-20
Location : Phoenix, Arizona

PostSubject: Re: Guitar/Bass Tabs   Mon Jun 23, 2008 4:08 pm

I vote for "What Do You Want" or "Eating Me Alive"!!!

Great job!!
Back to top Go down
View user profile http://www.lauradetour.com
Crusader
Let it Burn
Let it Burn
avatar

Posts : 395
Join date : 2008-05-19
Age : 27
Location : Cincinnati

PostSubject: Re: Guitar/Bass Tabs   Wed Jun 25, 2008 10:49 am

I'll do Eating Me Alive! I like that song a buuunch.

The bassline is disgusting too. It's freaking sweeet.
Back to top Go down
View user profile
Laura
Needs more than a tourniquet
Needs more than a tourniquet
avatar

Posts : 243
Join date : 2008-05-20
Location : Phoenix, Arizona

PostSubject: Re: Guitar/Bass Tabs   Thu Jun 26, 2008 12:34 am

YAY!! Not that I can do anything with it once you get it done, but I love that song so that makes me happy!! Excellent choice!
Back to top Go down
View user profile http://www.lauradetour.com
Crusader
Let it Burn
Let it Burn
avatar

Posts : 395
Join date : 2008-05-19
Age : 27
Location : Cincinnati

PostSubject: Re: Guitar/Bass Tabs   Thu Jun 26, 2008 11:13 am

I'll hopefully do it soon, haha.

I want to tab out like, everything... even the EP songs. Laughing
Back to top Go down
View user profile
Laura
Needs more than a tourniquet
Needs more than a tourniquet
avatar

Posts : 243
Join date : 2008-05-20
Location : Phoenix, Arizona

PostSubject: Re: Guitar/Bass Tabs   Thu Jun 26, 2008 6:57 pm

Did you ever hear back from Jinxx? I'll see him this Saturday, so I can "bug" him for you about it if you want / need...
Back to top Go down
View user profile http://www.lauradetour.com
Crusader
Let it Burn
Let it Burn
avatar

Posts : 395
Join date : 2008-05-19
Age : 27
Location : Cincinnati

PostSubject: Re: Guitar/Bass Tabs   Fri Jun 27, 2008 10:36 am

Nope, never heard back. I sent him Bullet though. Laughing
Back to top Go down
View user profile
Crusader
Let it Burn
Let it Burn
avatar

Posts : 395
Join date : 2008-05-19
Age : 27
Location : Cincinnati

PostSubject: Re: Guitar/Bass Tabs   Mon Jul 07, 2008 11:51 am

I've really been slacking, but I've been playing a whole lot, so I'll see what I can't pull out...

I'm really having computer difficulties, because the only computer I have that actually WORKS is at work... where I can't bring my guitar... Laughing

Ughhhh....
Back to top Go down
View user profile
Laura
Needs more than a tourniquet
Needs more than a tourniquet
avatar

Posts : 243
Join date : 2008-05-20
Location : Phoenix, Arizona

PostSubject: Re: Guitar/Bass Tabs   Tue Jul 08, 2008 2:01 am

No worries - I'm just incredibly impressed you've taken this on!!
Back to top Go down
View user profile http://www.lauradetour.com
Crusader
Let it Burn
Let it Burn
avatar

Posts : 395
Join date : 2008-05-19
Age : 27
Location : Cincinnati

PostSubject: Re: Guitar/Bass Tabs   Tue Jul 08, 2008 9:31 am

Well, it's a load off of Jinxx... He said he tries to do it when he has time, but hey... I don't care HOW much he likes music, he deserves a bit of a rest. Laughing
Back to top Go down
View user profile
Crusader
Let it Burn
Let it Burn
avatar

Posts : 395
Join date : 2008-05-19
Age : 27
Location : Cincinnati

PostSubject: Re: Guitar/Bass Tabs   Wed Jul 30, 2008 3:51 am

Okay, I just tabbed out "Beautiful" off of the EP... I like that version better... and it's easier to play. Embarassed

But yeah, here it be. If you want to play Ugly, then just take every note and push it up two frets, then you have Ugly... and the breakdown is different, but it's not terribly difficult to play.

Quote :
Beautiful
By The Dreaming

Tune Guitar for Drop D

Intro (Pick scrape with slide) | Bridge (Play 4 Times)
|-------------------------------------------------|---------------------------------------------|
|-------------------------------------------------|---------------------------------------------|
|-------------------------------------------------|---------------------------------------------|
|--------7\---------------------------------------|-------5--7-----5--7-----------------------|
|--------5\---------------------------------------|-------3--5-----3--5--0-0---3--3--5-----|
|---0---------------------------------------------|-0-0---------0---------0-0--3--3--5------|

(Play on the fourth time ONLY)
|---------------------------------------------|
|---------------------------------------------|
|---------------------------------------------|
|-------5--7-----5--7------5--7------------|
|-------3--5-----3--5------3--5------------|
|-0-0---------0---------0-------------------|

Verse (Play 3 Times
|----------------------------------------------------|
|----------------------------------------------------|
|-------------------5--3----------------------------|
|--5--7--8------5----------0--2--3----0--2--3---|
|----------------------------------------------------|
|----------------------------------------------------|

Chorus
|-----------------------------------------------------------------------------|
|-----------------------------------------------------------------------------|
|-----------------------------------------------------------------------------|
|----5----5-------------------------------33333333--55555555---------|
|----3----3-----5555555555555555--11111111--33333333---------|
|--0----0----0--5555555555555555-------------------------------------|

|--------------------------------------|-------------------------------------------------------------------|
|--------------------------------------|-------------------------------------------------------------------|
|--------------------------------------|-------------------------------------------------------------------|
|-------5--7-----5--7------5--7-----|----------------------------33333333--55555555--7-----7\--|
|-------3--5-----3--5------3--5-----|--5555555555555555--11111111--33333333--5-----5\--|
|-0-0---------0---------0------------|--5555555555555555---------------------------------0-------|

|---------------------------------------------|---------------------------------------------|
|---------------------------------------------|---------------------------------------------|
|---------------------------------------------|---------------------------------------------|
|-------5--7-----5--7-----------------------|-------5--7-----5--7------5--7------------|
|-------3--5-----3--5--0-0---3--3--5-----|-------3--5-----3--5------3--5------------|
|-0-0---------0---------0-0--3--3--5------|-0-0---------0---------0-------------------|

Verse (Play 3 Times
|----------------------------------------------------|
|----------------------------------------------------|
|-------------------5--3----------------------------|
|--5--7--8------5----------0--2--3----0--2--3---|
|----------------------------------------------------|
|----------------------------------------------------|

Chorus
|-----------------------------------------------------------------------------|
|-----------------------------------------------------------------------------|
|-----------------------------------------------------------------------------|
|----5----5-------------------------------33333333--55555555---------|
|----3----3-----5555555555555555--11111111--33333333---------|
|--0----0----0--5555555555555555-------------------------------------|

|--------------------------------------|-------------------------------------------------------------------|
|--------------------------------------|-------------------------------------------------------------------|
|--------------------------------------|-------------------------------------------------------------------|
|-------5--7-----5--7------5--7-----|----------------------------33333333--55555555--7-----7\--|
|-------3--5-----3--5------3--5-----|--5555555555555555--11111111--33333333--5-----5\--|
|-0-0---------0---------0------------|--5555555555555555---------------------------------0-------|

|---------------------------------------------|---------------------------------------------|
|---------------------------------------------|---------------------------------------------|
|---------------------------------------------|---------------------------------------------|
|-------5--7-----5--7-----------------------|-------5--7-----5--7------5--7------------|
|-------3--5-----3--5--0-0---3--3--5-----|-------3--5-----3--5------3--5------------|
|-0-0---------0---------0-0--3--3--5------|-0-0---------0---------0-------------------|

Breakdown (PALM MUTE)

|-----------------------|-----------------------------------------------------------------------------|
|-----------------------|-----------------------------------------------------------------------------|
|-----------------------|-----------------------------------------------------------------------------|
|-----------------------|----5----5-------------------------------33333333--55555555---------|
|--0-0-0-0-0-0-0-0--|----3----3-----5555555555555555--11111111--33333333---------|
|--0-0-0-0-0-0-0-0--|--0----0----0--5555555555555555-------------------------------------|

Outro

|----------------------------------|
|----------------------------------|
|----------------------------------|
|-------5--7-----5--7------5--7-|
|-------3--5-----3--5------3--5-|
|-0-0---------0---------0--------|

Play twice
|---------------------------------------------------------------------------|
|---------------------------------------------------------------------------|
|---------------------------------------------------------------------------|
|----------------------------33333333--55555555--77777777-------|
|--5555555555555555--11111111--33333333--55555555-------|
|--5555555555555555-------------------------------------------------|

Play the first bar four times | Play to end the song
|---------------------------------------------|---------------------------------------------|
|---------------------------------------------|---------------------------------------------|
|---------------------------------------------|---------------------------------------------|
|-------5--7-----5--7-----------------------|--0-----------------------------------------|
|-------3--5-----3--5--0-0---3--3--5------|--0---------------------------------------- |
|-0-0---------0---------0-0--3--3--5------|--0-----------------------------------------|

Tabbed by Steve Wirth
Back to top Go down
View user profile
Sponsored content




PostSubject: Re: Guitar/Bass Tabs   

Back to top Go down
 
Guitar/Bass Tabs
Back to top 
Page 1 of 2Go to page : 1, 2  Next
 Similar topics
-
» Queens are Trumps Bass Tabs?
» ???? Kagen no Tsuki [Bass Tabs]
» HARUKAZE [Chords & Tabs]
» SAKURA Goodbye bass tabs
» OVER DRIVE Guitar Tab (Intro only)

Permissions in this forum:You cannot reply to topics in this forum
Fans & Friends of The Dreaming :: Miscellaneous junk :: S**T!!-
Jump to: